ISO-10303-21;
HEADER;
/* Generated by software containing ST-Developer
 * from STEP Tools, Inc. (www.steptools.com) 
 */

FILE_DESCRIPTION(
/* description */ (''),
/* implementation_level */ '2;1');

FILE_NAME(
/* name */ '\\HW\\MK3S\\C1\\R4\\STEP\\adapter-printer-mmu2s.stp',
/* time_stamp */ '2019-02-11T12:34:58+01:00',
/* author */ ('PR'),
/* organization */ (''),
/* preprocessor_version */ 'ST-DEVELOPER v17',
/* originating_system */ 'Autodesk Inventor 2019',
/* authorisation */ '');

FILE_SCHEMA (('AUTOMOTIVE_DESIGN { 1 0 10303 214 3 1 1 }'));
ENDSEC;

DATA;
#10=MECHANICAL_DESIGN_GEOMETRIC_PRESENTATION_REPRESENTATION('',(#13),#610);
#11=SHAPE_REPRESENTATION_RELATIONSHIP('SRR','None',#617,#12);
#12=ADVANCED_BREP_SHAPE_REPRESENTATION('',(#14),#609);
#13=STYLED_ITEM('',(#626),#14);
#14=MANIFOLD_SOLID_BREP('T\X2\011B\X0\leso1',#357);
#15=CYLINDRICAL_SURFACE('',#393,1.7);
#16=CYLINDRICAL_SURFACE('',#402,1.3);
#17=CONICAL_SURFACE('',#390,1.875,0.785398163397449);
#18=CONICAL_SURFACE('',#397,1.4,0.261799387799149);
#19=FACE_BOUND('',#59,.T.);
#20=FACE_BOUND('',#70,.T.);
#21=FACE_BOUND('',#71,.T.);
#22=FACE_BOUND('',#74,.T.);
#23=FACE_BOUND('',#76,.T.);
#24=CIRCLE('',#381,1.3);
#25=CIRCLE('',#382,1.3);
#26=CIRCLE('',#388,0.499999999999999);
#27=CIRCLE('',#389,0.499999999999999);
#28=CIRCLE('',#391,3.25);
#29=CIRCLE('',#392,3.25);
#30=CIRCLE('',#394,1.7);
#31=CIRCLE('',#395,1.7);
#32=CIRCLE('',#396,1.7);
#33=CIRCLE('',#398,1.63397459621556);
#34=CIRCLE('',#399,1.63397459621556);
#35=CIRCLE('',#400,1.3);
#36=CIRCLE('',#401,1.3);
#37=FACE_OUTER_BOUND('',#55,.T.);
#38=FACE_OUTER_BOUND('',#56,.T.);
#39=FACE_OUTER_BOUND('',#57,.T.);
#40=FACE_OUTER_BOUND('',#58,.T.);
#41=FACE_OUTER_BOUND('',#60,.T.);
#42=FACE_OUTER_BOUND('',#61,.T.);
#43=FACE_OUTER_BOUND('',#62,.T.);
#44=FACE_OUTER_BOUND('',#63,.T.);
#45=FACE_OUTER_BOUND('',#64,.T.);
#46=FACE_OUTER_BOUND('',#65,.T.);
#47=FACE_OUTER_BOUND('',#66,.T.);
#48=FACE_OUTER_BOUND('',#67,.T.);
#49=FACE_OUTER_BOUND('',#68,.T.);
#50=FACE_OUTER_BOUND('',#69,.T.);
#51=FACE_OUTER_BOUND('',#72,.T.);
#52=FACE_OUTER_BOUND('',#73,.T.);
#53=FACE_OUTER_BOUND('',#75,.T.);
#54=FACE_OUTER_BOUND('',#77,.T.);
#55=EDGE_LOOP('',(#229,#230,#231,#232,#233));
#56=EDGE_LOOP('',(#234,#235,#236,#237));
#57=EDGE_LOOP('',(#238,#239,#240,#241));
#58=EDGE_LOOP('',(#242,#243,#244,#245));
#59=EDGE_LOOP('',(#246,#247));
#60=EDGE_LOOP('',(#248,#249,#250,#251,#252,#253));
#61=EDGE_LOOP('',(#254,#255,#256,#257,#258));
#62=EDGE_LOOP('',(#259,#260,#261,#262,#263,#264));
#63=EDGE_LOOP('',(#265,#266,#267,#268));
#64=EDGE_LOOP('',(#269,#270));
#65=EDGE_LOOP('',(#271,#272,#273,#274,#275,#276));
#66=EDGE_LOOP('',(#277,#278,#279,#280,#281));
#67=EDGE_LOOP('',(#282,#283,#284,#285,#286,#287));
#68=EDGE_LOOP('',(#288,#289,#290,#291,#292,#293));
#69=EDGE_LOOP('',(#294,#295,#296,#297));
#70=EDGE_LOOP('',(#298,#299));
#71=EDGE_LOOP('',(#300,#301));
#72=EDGE_LOOP('',(#302,#303,#304,#305));
#73=EDGE_LOOP('',(#306,#307,#308,#309,#310));
#74=EDGE_LOOP('',(#311));
#75=EDGE_LOOP('',(#312,#313,#314,#315,#316));
#76=EDGE_LOOP('',(#317,#318));
#77=EDGE_LOOP('',(#319,#320,#321,#322,#323,#324));
#78=LINE('',#511,#113);
#79=LINE('',#513,#114);
#80=LINE('',#515,#115);
#81=LINE('',#517,#116);
#82=LINE('',#518,#117);
#83=LINE('',#522,#118);
#84=LINE('',#524,#119);
#85=LINE('',#526,#120);
#86=LINE('',#527,#121);
#87=LINE('',#529,#122);
#88=LINE('',#530,#123);
#89=LINE('',#532,#124);
#90=LINE('',#539,#125);
#91=LINE('',#541,#126);
#92=LINE('',#542,#127);
#93=LINE('',#545,#128);
#94=LINE('',#547,#129);
#95=LINE('',#548,#130);
#96=LINE('',#551,#131);
#97=LINE('',#553,#132);
#98=LINE('',#555,#133);
#99=LINE('',#556,#134);
#100=LINE('',#559,#135);
#101=LINE('',#560,#136);
#102=LINE('',#571,#137);
#103=LINE('',#578,#138);
#104=LINE('',#586,#139);
#105=LINE('',#591,#140);
#106=LINE('',#594,#141);
#107=LINE('',#596,#142);
#108=LINE('',#597,#143);
#109=LINE('',#600,#144);
#110=LINE('',#601,#145);
#111=LINE('',#603,#146);
#112=LINE('',#605,#147);
#113=VECTOR('',#412,10.);
#114=VECTOR('',#413,10.);
#115=VECTOR('',#414,10.);
#116=VECTOR('',#415,10.);
#117=VECTOR('',#416,10.);
#118=VECTOR('',#419,10.);
#119=VECTOR('',#420,10.);
#120=VECTOR('',#421,10.);
#121=VECTOR('',#422,10.);
#122=VECTOR('',#425,10.);
#123=VECTOR('',#426,10.);
#124=VECTOR('',#429,10.);
#125=VECTOR('',#436,10.);
#126=VECTOR('',#437,10.);
#127=VECTOR('',#438,10.);
#128=VECTOR('',#441,10.);
#129=VECTOR('',#442,10.);
#130=VECTOR('',#443,10.);
#131=VECTOR('',#446,10.);
#132=VECTOR('',#447,10.);
#133=VECTOR('',#448,10.);
#134=VECTOR('',#449,10.);
#135=VECTOR('',#452,10.);
#136=VECTOR('',#453,10.);
#137=VECTOR('',#466,1.875);
#138=VECTOR('',#473,1.7);
#139=VECTOR('',#482,1.4);
#140=VECTOR('',#489,1.3);
#141=VECTOR('',#492,10.);
#142=VECTOR('',#493,10.);
#143=VECTOR('',#494,10.);
#144=VECTOR('',#497,10.);
#145=VECTOR('',#498,10.);
#146=VECTOR('',#501,10.);
#147=VECTOR('',#504,10.);
#148=VERTEX_POINT('',#509);
#149=VERTEX_POINT('',#510);
#150=VERTEX_POINT('',#512);
#151=VERTEX_POINT('',#514);
#152=VERTEX_POINT('',#516);
#153=VERTEX_POINT('',#520);
#154=VERTEX_POINT('',#521);
#155=VERTEX_POINT('',#523);
#156=VERTEX_POINT('',#525);
#157=VERTEX_POINT('',#533);
#158=VERTEX_POINT('',#534);
#159=VERTEX_POINT('',#538);
#160=VERTEX_POINT('',#540);
#161=VERTEX_POINT('',#544);
#162=VERTEX_POINT('',#546);
#163=VERTEX_POINT('',#550);
#164=VERTEX_POINT('',#552);
#165=VERTEX_POINT('',#554);
#166=VERTEX_POINT('',#558);
#167=VERTEX_POINT('',#562);
#168=VERTEX_POINT('',#563);
#169=VERTEX_POINT('',#567);
#170=VERTEX_POINT('',#568);
#171=VERTEX_POINT('',#573);
#172=VERTEX_POINT('',#574);
#173=VERTEX_POINT('',#577);
#174=VERTEX_POINT('',#581);
#175=VERTEX_POINT('',#582);
#176=VERTEX_POINT('',#585);
#177=VERTEX_POINT('',#587);
#178=VERTEX_POINT('',#593);
#179=VERTEX_POINT('',#595);
#180=VERTEX_POINT('',#599);
#181=EDGE_CURVE('',#148,#149,#78,.T.);
#182=EDGE_CURVE('',#149,#150,#79,.T.);
#183=EDGE_CURVE('',#150,#151,#80,.T.);
#184=EDGE_CURVE('',#151,#152,#81,.T.);
#185=EDGE_CURVE('',#152,#148,#82,.T.);
#186=EDGE_CURVE('',#153,#154,#83,.T.);
#187=EDGE_CURVE('',#154,#155,#84,.T.);
#188=EDGE_CURVE('',#155,#156,#85,.T.);
#189=EDGE_CURVE('',#156,#153,#86,.T.);
#190=EDGE_CURVE('',#152,#153,#87,.T.);
#191=EDGE_CURVE('',#156,#148,#88,.T.);
#192=EDGE_CURVE('',#149,#155,#89,.T.);
#193=EDGE_CURVE('',#157,#158,#24,.T.);
#194=EDGE_CURVE('',#158,#157,#25,.T.);
#195=EDGE_CURVE('',#154,#159,#90,.T.);
#196=EDGE_CURVE('',#159,#160,#91,.T.);
#197=EDGE_CURVE('',#150,#160,#92,.T.);
#198=EDGE_CURVE('',#160,#161,#93,.T.);
#199=EDGE_CURVE('',#161,#162,#94,.F.);
#200=EDGE_CURVE('',#162,#151,#95,.T.);
#201=EDGE_CURVE('',#163,#161,#96,.T.);
#202=EDGE_CURVE('',#159,#164,#97,.T.);
#203=EDGE_CURVE('',#164,#165,#98,.T.);
#204=EDGE_CURVE('',#165,#163,#99,.T.);
#205=EDGE_CURVE('',#162,#166,#100,.T.);
#206=EDGE_CURVE('',#152,#166,#101,.T.);
#207=EDGE_CURVE('',#167,#168,#26,.T.);
#208=EDGE_CURVE('',#168,#167,#27,.T.);
#209=EDGE_CURVE('',#169,#170,#28,.T.);
#210=EDGE_CURVE('',#170,#169,#29,.T.);
#211=EDGE_CURVE('',#170,#168,#102,.T.);
#212=EDGE_CURVE('',#171,#172,#30,.T.);
#213=EDGE_CURVE('',#172,#171,#31,.T.);
#214=EDGE_CURVE('',#172,#173,#103,.T.);
#215=EDGE_CURVE('',#173,#173,#32,.T.);
#216=EDGE_CURVE('',#174,#175,#33,.T.);
#217=EDGE_CURVE('',#175,#174,#34,.T.);
#218=EDGE_CURVE('',#175,#176,#104,.T.);
#219=EDGE_CURVE('',#176,#177,#35,.T.);
#220=EDGE_CURVE('',#177,#176,#36,.T.);
#221=EDGE_CURVE('',#176,#158,#105,.T.);
#222=EDGE_CURVE('',#178,#164,#106,.T.);
#223=EDGE_CURVE('',#179,#178,#107,.T.);
#224=EDGE_CURVE('',#165,#179,#108,.T.);
#225=EDGE_CURVE('',#180,#179,#109,.T.);
#226=EDGE_CURVE('',#163,#180,#110,.T.);
#227=EDGE_CURVE('',#166,#180,#111,.T.);
#228=EDGE_CURVE('',#178,#153,#112,.T.);
#229=ORIENTED_EDGE('',*,*,#181,.T.);
#230=ORIENTED_EDGE('',*,*,#182,.T.);
#231=ORIENTED_EDGE('',*,*,#183,.T.);
#232=ORIENTED_EDGE('',*,*,#184,.T.);
#233=ORIENTED_EDGE('',*,*,#185,.T.);
#234=ORIENTED_EDGE('',*,*,#186,.T.);
#235=ORIENTED_EDGE('',*,*,#187,.T.);
#236=ORIENTED_EDGE('',*,*,#188,.T.);
#237=ORIENTED_EDGE('',*,*,#189,.T.);
#238=ORIENTED_EDGE('',*,*,#190,.T.);
#239=ORIENTED_EDGE('',*,*,#189,.F.);
#240=ORIENTED_EDGE('',*,*,#191,.T.);
#241=ORIENTED_EDGE('',*,*,#185,.F.);
#242=ORIENTED_EDGE('',*,*,#181,.F.);
#243=ORIENTED_EDGE('',*,*,#191,.F.);
#244=ORIENTED_EDGE('',*,*,#188,.F.);
#245=ORIENTED_EDGE('',*,*,#192,.F.);
#246=ORIENTED_EDGE('',*,*,#193,.T.);
#247=ORIENTED_EDGE('',*,*,#194,.T.);
#248=ORIENTED_EDGE('',*,*,#182,.F.);
#249=ORIENTED_EDGE('',*,*,#192,.T.);
#250=ORIENTED_EDGE('',*,*,#187,.F.);
#251=ORIENTED_EDGE('',*,*,#195,.T.);
#252=ORIENTED_EDGE('',*,*,#196,.T.);
#253=ORIENTED_EDGE('',*,*,#197,.F.);
#254=ORIENTED_EDGE('',*,*,#183,.F.);
#255=ORIENTED_EDGE('',*,*,#197,.T.);
#256=ORIENTED_EDGE('',*,*,#198,.T.);
#257=ORIENTED_EDGE('',*,*,#199,.T.);
#258=ORIENTED_EDGE('',*,*,#200,.T.);
#259=ORIENTED_EDGE('',*,*,#201,.T.);
#260=ORIENTED_EDGE('',*,*,#198,.F.);
#261=ORIENTED_EDGE('',*,*,#196,.F.);
#262=ORIENTED_EDGE('',*,*,#202,.T.);
#263=ORIENTED_EDGE('',*,*,#203,.T.);
#264=ORIENTED_EDGE('',*,*,#204,.T.);
#265=ORIENTED_EDGE('',*,*,#184,.F.);
#266=ORIENTED_EDGE('',*,*,#200,.F.);
#267=ORIENTED_EDGE('',*,*,#205,.T.);
#268=ORIENTED_EDGE('',*,*,#206,.F.);
#269=ORIENTED_EDGE('',*,*,#207,.F.);
#270=ORIENTED_EDGE('',*,*,#208,.F.);
#271=ORIENTED_EDGE('',*,*,#209,.F.);
#272=ORIENTED_EDGE('',*,*,#210,.F.);
#273=ORIENTED_EDGE('',*,*,#211,.T.);
#274=ORIENTED_EDGE('',*,*,#208,.T.);
#275=ORIENTED_EDGE('',*,*,#207,.T.);
#276=ORIENTED_EDGE('',*,*,#211,.F.);
#277=ORIENTED_EDGE('',*,*,#212,.F.);
#278=ORIENTED_EDGE('',*,*,#213,.F.);
#279=ORIENTED_EDGE('',*,*,#214,.T.);
#280=ORIENTED_EDGE('',*,*,#215,.F.);
#281=ORIENTED_EDGE('',*,*,#214,.F.);
#282=ORIENTED_EDGE('',*,*,#216,.F.);
#283=ORIENTED_EDGE('',*,*,#217,.F.);
#284=ORIENTED_EDGE('',*,*,#218,.T.);
#285=ORIENTED_EDGE('',*,*,#219,.T.);
#286=ORIENTED_EDGE('',*,*,#220,.T.);
#287=ORIENTED_EDGE('',*,*,#218,.F.);
#288=ORIENTED_EDGE('',*,*,#220,.F.);
#289=ORIENTED_EDGE('',*,*,#219,.F.);
#290=ORIENTED_EDGE('',*,*,#221,.T.);
#291=ORIENTED_EDGE('',*,*,#193,.F.);
#292=ORIENTED_EDGE('',*,*,#194,.F.);
#293=ORIENTED_EDGE('',*,*,#221,.F.);
#294=ORIENTED_EDGE('',*,*,#222,.F.);
#295=ORIENTED_EDGE('',*,*,#223,.F.);
#296=ORIENTED_EDGE('',*,*,#224,.F.);
#297=ORIENTED_EDGE('',*,*,#203,.F.);
#298=ORIENTED_EDGE('',*,*,#212,.T.);
#299=ORIENTED_EDGE('',*,*,#213,.T.);
#300=ORIENTED_EDGE('',*,*,#216,.T.);
#301=ORIENTED_EDGE('',*,*,#217,.T.);
#302=ORIENTED_EDGE('',*,*,#224,.T.);
#303=ORIENTED_EDGE('',*,*,#225,.F.);
#304=ORIENTED_EDGE('',*,*,#226,.F.);
#305=ORIENTED_EDGE('',*,*,#204,.F.);
#306=ORIENTED_EDGE('',*,*,#226,.T.);
#307=ORIENTED_EDGE('',*,*,#227,.F.);
#308=ORIENTED_EDGE('',*,*,#205,.F.);
#309=ORIENTED_EDGE('',*,*,#199,.F.);
#310=ORIENTED_EDGE('',*,*,#201,.F.);
#311=ORIENTED_EDGE('',*,*,#215,.T.);
#312=ORIENTED_EDGE('',*,*,#186,.F.);
#313=ORIENTED_EDGE('',*,*,#228,.F.);
#314=ORIENTED_EDGE('',*,*,#222,.T.);
#315=ORIENTED_EDGE('',*,*,#202,.F.);
#316=ORIENTED_EDGE('',*,*,#195,.F.);
#317=ORIENTED_EDGE('',*,*,#209,.T.);
#318=ORIENTED_EDGE('',*,*,#210,.T.);
#319=ORIENTED_EDGE('',*,*,#190,.F.);
#320=ORIENTED_EDGE('',*,*,#206,.T.);
#321=ORIENTED_EDGE('',*,*,#227,.T.);
#322=ORIENTED_EDGE('',*,*,#225,.T.);
#323=ORIENTED_EDGE('',*,*,#223,.T.);
#324=ORIENTED_EDGE('',*,*,#228,.T.);
#325=PLANE('',#377);
#326=PLANE('',#378);
#327=PLANE('',#379);
#328=PLANE('',#380);
#329=PLANE('',#383);
#330=PLANE('',#384);
#331=PLANE('',#385);
#332=PLANE('',#386);
#333=PLANE('',#387);
#334=PLANE('',#403);
#335=PLANE('',#404);
#336=PLANE('',#405);
#337=PLANE('',#406);
#338=PLANE('',#407);
#339=ADVANCED_FACE('',(#37),#325,.T.);
#340=ADVANCED_FACE('',(#38),#326,.T.);
#341=ADVANCED_FACE('',(#39),#327,.T.);
#342=ADVANCED_FACE('',(#40,#19),#328,.T.);
#343=ADVANCED_FACE('',(#41),#329,.T.);
#344=ADVANCED_FACE('',(#42),#330,.T.);
#345=ADVANCED_FACE('',(#43),#331,.T.);
#346=ADVANCED_FACE('',(#44),#332,.T.);
#347=ADVANCED_FACE('',(#45),#333,.T.);
#348=ADVANCED_FACE('',(#46),#17,.T.);
#349=ADVANCED_FACE('',(#47),#15,.F.);
#350=ADVANCED_FACE('',(#48),#18,.F.);
#351=ADVANCED_FACE('',(#49),#16,.F.);
#352=ADVANCED_FACE('',(#50,#20,#21),#334,.T.);
#353=ADVANCED_FACE('',(#51),#335,.T.);
#354=ADVANCED_FACE('',(#52,#22),#336,.T.);
#355=ADVANCED_FACE('',(#53,#23),#337,.T.);
#356=ADVANCED_FACE('',(#54),#338,.T.);
#357=CLOSED_SHELL('',(#339,#340,#341,#342,#343,#344,#345,#346,#347,#348,
#349,#350,#351,#352,#353,#354,#355,#356));
#358=DERIVED_UNIT_ELEMENT(#360,1.);
#359=DERIVED_UNIT_ELEMENT(#612,3.);
#360=(
MASS_UNIT()
NAMED_UNIT(*)
SI_UNIT($,.GRAM.)
);
#361=DERIVED_UNIT((#358,#359));
#362=MEASURE_REPRESENTATION_ITEM('density measure',
POSITIVE_RATIO_MEASURE(1.),#361);
#363=PROPERTY_DEFINITION_REPRESENTATION(#368,#365);
#364=PROPERTY_DEFINITION_REPRESENTATION(#369,#366);
#365=REPRESENTATION('material name',(#367),#609);
#366=REPRESENTATION('density',(#362),#609);
#367=DESCRIPTIVE_REPRESENTATION_ITEM('V\X2\0161\X0\eobecn\X\E9',
'V\X2\0161\X0\eobecn\X\E9');
#368=PROPERTY_DEFINITION('material property','material name',#619);
#369=PROPERTY_DEFINITION('material property','density of part',#619);
#370=DATE_TIME_ROLE('creation_date');
#371=APPLIED_DATE_AND_TIME_ASSIGNMENT(#372,#370,(#619));
#372=DATE_AND_TIME(#373,#374);
#373=CALENDAR_DATE(2019,8,1);
#374=LOCAL_TIME(10,26,7.,#375);
#375=COORDINATED_UNIVERSAL_TIME_OFFSET(0,0,.BEHIND.);
#376=AXIS2_PLACEMENT_3D('placement',#507,#408,#409);
#377=AXIS2_PLACEMENT_3D('',#508,#410,#411);
#378=AXIS2_PLACEMENT_3D('',#519,#417,#418);
#379=AXIS2_PLACEMENT_3D('',#528,#423,#424);
#380=AXIS2_PLACEMENT_3D('',#531,#427,#428);
#381=AXIS2_PLACEMENT_3D('',#535,#430,#431);
#382=AXIS2_PLACEMENT_3D('',#536,#432,#433);
#383=AXIS2_PLACEMENT_3D('',#537,#434,#435);
#384=AXIS2_PLACEMENT_3D('',#543,#439,#440);
#385=AXIS2_PLACEMENT_3D('',#549,#444,#445);
#386=AXIS2_PLACEMENT_3D('',#557,#450,#451);
#387=AXIS2_PLACEMENT_3D('',#561,#454,#455);
#388=AXIS2_PLACEMENT_3D('',#564,#456,#457);
#389=AXIS2_PLACEMENT_3D('',#565,#458,#459);
#390=AXIS2_PLACEMENT_3D('',#566,#460,#461);
#391=AXIS2_PLACEMENT_3D('',#569,#462,#463);
#392=AXIS2_PLACEMENT_3D('',#570,#464,#465);
#393=AXIS2_PLACEMENT_3D('',#572,#467,#468);
#394=AXIS2_PLACEMENT_3D('',#575,#469,#470);
#395=AXIS2_PLACEMENT_3D('',#576,#471,#472);
#396=AXIS2_PLACEMENT_3D('',#579,#474,#475);
#397=AXIS2_PLACEMENT_3D('',#580,#476,#477);
#398=AXIS2_PLACEMENT_3D('',#583,#478,#479);
#399=AXIS2_PLACEMENT_3D('',#584,#480,#481);
#400=AXIS2_PLACEMENT_3D('',#588,#483,#484);
#401=AXIS2_PLACEMENT_3D('',#589,#485,#486);
#402=AXIS2_PLACEMENT_3D('',#590,#487,#488);
#403=AXIS2_PLACEMENT_3D('',#592,#490,#491);
#404=AXIS2_PLACEMENT_3D('',#598,#495,#496);
#405=AXIS2_PLACEMENT_3D('',#602,#499,#500);
#406=AXIS2_PLACEMENT_3D('',#604,#502,#503);
#407=AXIS2_PLACEMENT_3D('',#606,#505,#506);
#408=DIRECTION('axis',(0.,0.,1.));
#409=DIRECTION('refdir',(1.,0.,0.));
#410=DIRECTION('center_axis',(0.,-0.707106781186549,-0.707106781186546));
#411=DIRECTION('ref_axis',(-1.,0.,0.));
#412=DIRECTION('',(-1.,0.,0.));
#413=DIRECTION('',(-0.377964473009226,0.654653670707976,-0.654653670707979));
#414=DIRECTION('',(0.377964473009228,0.654653670707975,-0.654653670707978));
#415=DIRECTION('',(1.,0.,0.));
#416=DIRECTION('',(-0.577350269189626,-0.577350269189624,0.577350269189627));
#417=DIRECTION('center_axis',(0.,-0.707106781186548,0.707106781186548));
#418=DIRECTION('ref_axis',(1.,0.,0.));
#419=DIRECTION('',(-1.,0.,0.));
#420=DIRECTION('',(0.377964473009227,-0.654653670707977,-0.654653670707977));
#421=DIRECTION('',(1.,0.,0.));
#422=DIRECTION('',(0.577350269189625,0.577350269189626,0.577350269189626));
#423=DIRECTION('center_axis',(0.707106781186548,-0.707106781186547,-2.73059558031961E-16));
#424=DIRECTION('ref_axis',(-3.86164530304402E-16,0.,-1.));
#425=DIRECTION('',(0.,-3.86164530304402E-16,1.));
#426=DIRECTION('',(0.,3.86164530304402E-16,-1.));
#427=DIRECTION('center_axis',(0.,-1.,-3.86164530304402E-16));
#428=DIRECTION('ref_axis',(0.,3.86164530304402E-16,-1.));
#429=DIRECTION('',(0.,-3.86164530304402E-16,1.));
#430=DIRECTION('center_axis',(0.,1.,3.86164530304402E-16));
#431=DIRECTION('ref_axis',(1.,0.,0.));
#432=DIRECTION('center_axis',(0.,1.,3.86164530304402E-16));
#433=DIRECTION('ref_axis',(1.,0.,0.));
#434=DIRECTION('center_axis',(-0.866025403784439,-0.5,-1.93082265152201E-16));
#435=DIRECTION('ref_axis',(-2.22952195522732E-16,0.,1.));
#436=DIRECTION('',(-0.5,0.866025403784439,8.74073948356165E-17));
#437=DIRECTION('',(0.,3.86164530304402E-16,-1.));
#438=DIRECTION('',(-0.377964473009227,0.654653670707977,0.654653670707977));
#439=DIRECTION('center_axis',(-0.866025403784438,2.4671622769448E-16,-0.5));
#440=DIRECTION('ref_axis',(-0.5,0.,0.866025403784438));
#441=DIRECTION('',(0.,1.,4.93432455388959E-16));
#442=DIRECTION('',(-0.5,-4.80740671595891E-16,0.866025403784438));
#443=DIRECTION('',(0.,-1.,-4.93432455388959E-16));
#444=DIRECTION('center_axis',(-1.,0.,0.));
#445=DIRECTION('ref_axis',(0.,0.,1.));
#446=DIRECTION('',(0.,-5.55111512312578E-16,1.));
#447=DIRECTION('',(0.,1.,1.00929365875014E-16));
#448=DIRECTION('',(0.,0.,-1.));
#449=DIRECTION('',(0.,-1.,0.));
#450=DIRECTION('center_axis',(0.,4.93432455388959E-16,-1.));
#451=DIRECTION('ref_axis',(0.,1.,4.93432455388959E-16));
#452=DIRECTION('',(1.,0.,0.));
#453=DIRECTION('',(0.,1.,4.93432455388959E-16));
#454=DIRECTION('center_axis',(0.,0.,1.));
#455=DIRECTION('ref_axis',(1.,0.,0.));
#456=DIRECTION('center_axis',(0.,0.,-1.));
#457=DIRECTION('ref_axis',(1.,0.,0.));
#458=DIRECTION('center_axis',(0.,0.,-1.));
#459=DIRECTION('ref_axis',(1.,0.,0.));
#460=DIRECTION('center_axis',(0.,0.,-1.));
#461=DIRECTION('ref_axis',(0.,1.,0.));
#462=DIRECTION('center_axis',(0.,1.00929365875014E-16,-1.));
#463=DIRECTION('ref_axis',(0.,1.,0.));
#464=DIRECTION('center_axis',(0.,1.00929365875014E-16,-1.));
#465=DIRECTION('ref_axis',(0.,1.,0.));
#466=DIRECTION('',(8.65956056235493E-17,0.707106781186548,0.707106781186547));
#467=DIRECTION('center_axis',(0.,1.,0.));
#468=DIRECTION('ref_axis',(1.,0.,0.));
#469=DIRECTION('center_axis',(0.,-1.,0.));
#470=DIRECTION('ref_axis',(1.,0.,0.));
#471=DIRECTION('center_axis',(0.,-1.,0.));
#472=DIRECTION('ref_axis',(1.,0.,0.));
#473=DIRECTION('',(0.,-1.,0.));
#474=DIRECTION('center_axis',(0.,1.,5.55111512312578E-16));
#475=DIRECTION('ref_axis',(1.,0.,0.));
#476=DIRECTION('center_axis',(0.,1.,0.));
#477=DIRECTION('ref_axis',(1.,0.,0.));
#478=DIRECTION('center_axis',(0.,-1.,0.));
#479=DIRECTION('ref_axis',(1.,0.,0.));
#480=DIRECTION('center_axis',(0.,-1.,0.));
#481=DIRECTION('ref_axis',(1.,0.,0.));
#482=DIRECTION('',(0.258819045102521,-0.965925826289068,3.16961915143176E-17));
#483=DIRECTION('center_axis',(0.,-1.,0.));
#484=DIRECTION('ref_axis',(1.,0.,0.));
#485=DIRECTION('center_axis',(0.,-1.,0.));
#486=DIRECTION('ref_axis',(1.,0.,0.));
#487=DIRECTION('center_axis',(0.,-1.,0.));
#488=DIRECTION('ref_axis',(1.,0.,0.));
#489=DIRECTION('',(0.,-1.,0.));
#490=DIRECTION('center_axis',(0.,1.,0.));
#491=DIRECTION('ref_axis',(0.,0.,1.));
#492=DIRECTION('',(-1.,0.,0.));
#493=DIRECTION('',(0.,0.,1.));
#494=DIRECTION('',(1.,0.,0.));
#495=DIRECTION('center_axis',(0.,0.,-1.));
#496=DIRECTION('ref_axis',(0.,1.,0.));
#497=DIRECTION('',(0.,1.,0.));
#498=DIRECTION('',(1.,0.,0.));
#499=DIRECTION('center_axis',(0.,-1.,-5.55111512312578E-16));
#500=DIRECTION('ref_axis',(0.,5.55111512312578E-16,-1.));
#501=DIRECTION('',(0.,5.55111512312578E-16,-1.));
#502=DIRECTION('center_axis',(0.,-1.00929365875014E-16,1.));
#503=DIRECTION('ref_axis',(0.,-1.,-1.00929365875014E-16));
#504=DIRECTION('',(0.,-1.,-1.00929365875014E-16));
#505=DIRECTION('center_axis',(1.,0.,0.));
#506=DIRECTION('ref_axis',(0.,0.,-1.));
#507=CARTESIAN_POINT('',(0.,0.,0.));
#508=CARTESIAN_POINT('Origin',(0.,-10.75,-5.25));
#509=CARTESIAN_POINT('',(2.95,-11.,-5.));
#510=CARTESIAN_POINT('',(-5.27264973081037,-11.,-5.));
#511=CARTESIAN_POINT('',(0.,-11.,-5.));
#512=CARTESIAN_POINT('',(-5.41698729810778,-10.75,-5.25));
#513=CARTESIAN_POINT('',(-4.29669743540937,-12.690398961398,-3.30960103860199));
#514=CARTESIAN_POINT('',(-5.27264973081037,-10.5,-5.5));
#515=CARTESIAN_POINT('',(-4.66785117988842,-9.45245818145914,-6.54754181854087));
#516=CARTESIAN_POINT('',(3.45,-10.5,-5.5));
#517=CARTESIAN_POINT('',(0.,-10.5,-5.5));
#518=CARTESIAN_POINT('',(3.45,-10.5,-5.5));
#519=CARTESIAN_POINT('Origin',(0.,-10.75,5.75));
#520=CARTESIAN_POINT('',(3.45,-10.5,6.));
#521=CARTESIAN_POINT('',(-5.56132486540518,-10.5,6.));
#522=CARTESIAN_POINT('',(0.,-10.5,6.));
#523=CARTESIAN_POINT('',(-5.27264973081037,-11.,5.5));
#524=CARTESIAN_POINT('',(-4.48500337929948,-12.3642434992131,4.13575650078687));
#525=CARTESIAN_POINT('',(2.95,-11.,5.5));
#526=CARTESIAN_POINT('',(0.,-11.,5.5));
#527=CARTESIAN_POINT('',(2.95,-11.,5.5));
#528=CARTESIAN_POINT('Origin',(3.2,-10.75,1.0110294117647));
#529=CARTESIAN_POINT('',(3.45,-10.5,1.0110294117647));
#530=CARTESIAN_POINT('',(2.95,-11.,1.0110294117647));
#531=CARTESIAN_POINT('Origin',(0.,-11.,6.));
#532=CARTESIAN_POINT('',(-5.27264973081037,-11.,1.0110294117647));
#533=CARTESIAN_POINT('',(1.3,-11.,0.));
#534=CARTESIAN_POINT('',(-1.3,-11.,-1.59204083889156E-16));
#535=CARTESIAN_POINT('Origin',(0.,-11.,0.));
#536=CARTESIAN_POINT('Origin',(0.,-11.,0.));
#537=CARTESIAN_POINT('Origin',(-5.56132486540519,-10.5,1.0110294117647));
#538=CARTESIAN_POINT('',(-5.85,-10.,6.));
#539=CARTESIAN_POINT('',(-7.13947594216369,-7.76656215303474,6.));
#540=CARTESIAN_POINT('',(-5.85,-10.,-4.5));
#541=CARTESIAN_POINT('',(-5.85,-10.,1.01102941176471));
#542=CARTESIAN_POINT('',(-6.6775151704929,-8.56670168067227,-3.06670168067227));
#543=CARTESIAN_POINT('Origin',(-5.56132486540519,-7.48897058823529,-5.));
#544=CARTESIAN_POINT('',(-5.85,-2.,-4.5));
#545=CARTESIAN_POINT('',(-5.85,-7.48897058823529,-4.5));
#546=CARTESIAN_POINT('',(-5.27264973081037,-2.,-5.5));
#547=CARTESIAN_POINT('',(-4.75790608175648,-2.,-6.39156215303474));
#548=CARTESIAN_POINT('',(-5.27264973081037,-7.48897058823529,-5.5));
#549=CARTESIAN_POINT('Origin',(-5.85,-3.97794117647059,-3.97794117647059));
#550=CARTESIAN_POINT('',(-5.85,-2.,-17.));
#551=CARTESIAN_POINT('',(-5.85,-2.,-5.5));
#552=CARTESIAN_POINT('',(-5.85,0.,6.));
#553=CARTESIAN_POINT('',(-5.85,0.,6.));
#554=CARTESIAN_POINT('',(-5.85,0.,-17.));
#555=CARTESIAN_POINT('',(-5.85,0.,-17.));
#556=CARTESIAN_POINT('',(-5.85,-2.,-17.));
#557=CARTESIAN_POINT('Origin',(0.,-11.,-5.5));
#558=CARTESIAN_POINT('',(3.45,-2.,-5.5));
#559=CARTESIAN_POINT('',(0.,-2.,-5.5));
#560=CARTESIAN_POINT('',(3.45,-11.,-5.5));
#561=CARTESIAN_POINT('Origin',(0.,-5.,8.75));
#562=CARTESIAN_POINT('',(0.,-5.,8.75));
#563=CARTESIAN_POINT('',(-6.12323399573676E-17,-6.,8.75));
#564=CARTESIAN_POINT('Origin',(0.,-5.5,8.75));
#565=CARTESIAN_POINT('Origin',(0.,-5.5,8.75));
#566=CARTESIAN_POINT('Origin',(0.,-5.5,7.375));
#567=CARTESIAN_POINT('',(0.,-2.25,6.));
#568=CARTESIAN_POINT('',(-3.9801020972289E-16,-8.75,6.));
#569=CARTESIAN_POINT('Origin',(0.,-5.5,6.));
#570=CARTESIAN_POINT('Origin',(0.,-5.5,6.));
#571=CARTESIAN_POINT('',(-2.29621274840129E-16,-7.375,7.375));
#572=CARTESIAN_POINT('Origin',(5.55111512312578E-16,-26.7207784317748,-10.));
#573=CARTESIAN_POINT('',(1.7,0.,-10.));
#574=CARTESIAN_POINT('',(-1.7,0.,-10.));
#575=CARTESIAN_POINT('Origin',(5.55111512312578E-16,0.,-10.));
#576=CARTESIAN_POINT('Origin',(5.55111512312578E-16,0.,-10.));
#577=CARTESIAN_POINT('',(-1.7,-2.,-10.));
#578=CARTESIAN_POINT('',(-1.7,-26.7207784317748,-10.));
#579=CARTESIAN_POINT('Origin',(5.55111512312578E-16,-2.,-10.));
#580=CARTESIAN_POINT('Origin',(0.,-0.873205080756891,0.));
#581=CARTESIAN_POINT('',(1.63397459621556,0.,0.));
#582=CARTESIAN_POINT('',(-1.63397459621556,0.,-2.00104175914348E-16));
#583=CARTESIAN_POINT('Origin',(0.,0.,0.));
#584=CARTESIAN_POINT('Origin',(0.,0.,0.));
#585=CARTESIAN_POINT('',(-1.3,-1.24641016151378,-1.59204083889156E-16));
#586=CARTESIAN_POINT('',(-1.4,-0.873205080756891,-1.71450551880629E-16));
#587=CARTESIAN_POINT('',(1.3,-1.24641016151378,0.));
#588=CARTESIAN_POINT('Origin',(0.,-1.24641016151378,0.));
#589=CARTESIAN_POINT('Origin',(0.,-1.24641016151378,0.));
#590=CARTESIAN_POINT('Origin',(0.,-6.12320508075689,0.));
#591=CARTESIAN_POINT('',(-1.3,-6.12320508075689,-1.59204083889156E-16));
#592=CARTESIAN_POINT('Origin',(0.,0.,-17.));
#593=CARTESIAN_POINT('',(3.45,0.,6.));
#594=CARTESIAN_POINT('',(0.,0.,6.));
#595=CARTESIAN_POINT('',(3.45,0.,-17.));
#596=CARTESIAN_POINT('',(3.45,0.,-17.));
#597=CARTESIAN_POINT('',(0.,0.,-17.));
#598=CARTESIAN_POINT('Origin',(0.,-2.,-17.));
#599=CARTESIAN_POINT('',(3.45,-2.,-17.));
#600=CARTESIAN_POINT('',(3.45,-2.,-17.));
#601=CARTESIAN_POINT('',(0.,-2.,-17.));
#602=CARTESIAN_POINT('Origin',(0.,-2.,-5.5));
#603=CARTESIAN_POINT('',(3.45,-2.,-5.5));
#604=CARTESIAN_POINT('Origin',(0.,0.,6.));
#605=CARTESIAN_POINT('',(3.45,0.,6.));
#606=CARTESIAN_POINT('Origin',(3.45,-3.97794117647059,-3.97794117647059));
#607=UNCERTAINTY_MEASURE_WITH_UNIT(LENGTH_MEASURE(0.01),#611,
'DISTANCE_ACCURACY_VALUE',
'Maximum model space distance between geometric entities at asserted c
onnectivities');
#608=UNCERTAINTY_MEASURE_WITH_UNIT(LENGTH_MEASURE(0.01),#611,
'DISTANCE_ACCURACY_VALUE',
'Maximum model space distance between geometric entities at asserted c
onnectivities');
#609=(
GEOMETRIC_REPRESENTATION_CONTEXT(3)
GLOBAL_UNCERTAINTY_ASSIGNED_CONTEXT((#607))
GLOBAL_UNIT_ASSIGNED_CONTEXT((#611,#614,#613))
REPRESENTATION_CONTEXT('','3D')
);
#610=(
GEOMETRIC_REPRESENTATION_CONTEXT(3)
GLOBAL_UNCERTAINTY_ASSIGNED_CONTEXT((#608))
GLOBAL_UNIT_ASSIGNED_CONTEXT((#611,#614,#613))
REPRESENTATION_CONTEXT('','3D')
);
#611=(
LENGTH_UNIT()
NAMED_UNIT(*)
SI_UNIT(.MILLI.,.METRE.)
);
#612=(
LENGTH_UNIT()
NAMED_UNIT(*)
SI_UNIT(.CENTI.,.METRE.)
);
#613=(
NAMED_UNIT(*)
SI_UNIT($,.STERADIAN.)
SOLID_ANGLE_UNIT()
);
#614=(
NAMED_UNIT(*)
PLANE_ANGLE_UNIT()
SI_UNIT($,.RADIAN.)
);
#615=SHAPE_DEFINITION_REPRESENTATION(#616,#617);
#616=PRODUCT_DEFINITION_SHAPE('',$,#619);
#617=SHAPE_REPRESENTATION('',(#376),#609);
#618=PRODUCT_DEFINITION_CONTEXT('part definition',#623,'design');
#619=PRODUCT_DEFINITION('Sou\X2\010D00E1\X0\st1',
'adapter-printer-mmu2s',#620,#618);
#620=PRODUCT_DEFINITION_FORMATION('',$,#625);
#621=PRODUCT_RELATED_PRODUCT_CATEGORY('adapter-printer-mmu2s',
'adapter-printer-mmu2s',(#625));
#622=APPLICATION_PROTOCOL_DEFINITION('international standard',
'automotive_design',2009,#623);
#623=APPLICATION_CONTEXT(
'Core Data for Automotive Mechanical Design Process');
#624=PRODUCT_CONTEXT('part definition',#623,'mechanical');
#625=PRODUCT('Sou\X2\010D00E1\X0\st1','adapter-printer-mmu2s',$,(#624));
#626=PRESENTATION_STYLE_ASSIGNMENT((#627));
#627=SURFACE_STYLE_USAGE(.BOTH.,#628);
#628=SURFACE_SIDE_STYLE('',(#629));
#629=SURFACE_STYLE_FILL_AREA(#630);
#630=FILL_AREA_STYLE('',(#631));
#631=FILL_AREA_STYLE_COLOUR('',#632);
#632=COLOUR_RGB('',0.0941176470588235,0.145098039215686,0.972549019607843);
ENDSEC;
END-ISO-10303-21;
